ISO-10303-21;
HEADER;
FILE_DESCRIPTION (( 'STEP AP203' ),
    '1' );
FILE_NAME ('QM-AAHWP-15-650-1100-M.STEP',
    '2021-01-05T02:33:09',
    ( '' ),
    ( '' ),
    'SwSTEP 2.0',
    'SolidWorks 2020',
    '' );
FILE_SCHEMA (( 'CONFIG_CONTROL_DESIGN' ));
ENDSEC;

DATA;
#1 = ORIENTED_EDGE ( 'NONE', *, *, #277, .F. ) ;
#2 = DIRECTION ( 'NONE',  ( 1.000000000000000000, 0.000000000000000000, 0.000000000000000000 ) ) ;
#3 = VECTOR ( 'NONE', #194, 1000.000000000000000 ) ;
#4 = CYLINDRICAL_SURFACE ( 'NONE', #41, 12.69999999999999929 ) ;
#5 = PERSON_AND_ORGANIZATION ( #255, #97 ) ;
#6 = CARTESIAN_POINT ( 'NONE',  ( -1.614212418857619014, 0.000000000000000000, 0.000000000000000000 ) ) ;
#7 = ORIENTED_EDGE ( 'NONE', *, *, #259, .F. ) ;
#8 = PERSON_AND_ORGANIZATION_ROLE ( 'creator' ) ;
#9 = DIRECTION ( 'NONE',  ( 0.000000000000000000, 0.000000000000000000, 1.000000000000000000 ) ) ;
#10 = VERTEX_POINT ( 'NONE', #308 ) ;
#11 = LOCAL_TIME ( 10, 33, 9.000000000000000000, #20 ) ;
#12 = DIRECTION ( 'NONE',  ( -1.000000000000000000, -0.000000000000000000, -0.000000000000000000 ) ) ;
#13 = ORIENTED_EDGE ( 'NONE', *, *, #323, .T. ) ;
#14 = CARTESIAN_POINT ( 'NONE',  ( -3.000000000000000000, 0.000000000000000000, 0.000000000000000000 ) ) ;
#15 = CARTESIAN_POINT ( 'NONE',  ( -1.614212418857619014, 9.184850993605145972E-16, -7.499999999999998224 ) ) ;
#16 = ADVANCED_FACE ( 'NONE', ( #203 ), #72, .F. ) ;
#17 = EDGE_CURVE ( 'NONE', #279, #45, #80, .T. ) ;
#18 = AXIS2_PLACEMENT_3D ( 'NONE', #291, #239, #312 ) ;
#19 = EDGE_LOOP ( 'NONE', ( #178, #138, #150, #184 ) ) ;
#20 = COORDINATED_UNIVERSAL_TIME_OFFSET ( 8, 0, .AHEAD. ) ;
#21 = CARTESIAN_POINT ( 'NONE',  ( 0.5000000000000008882, 9.184850993605147944E-16, -7.500000000000000000 ) ) ;
#22 = APPROVAL_DATE_TIME ( #79, #241 ) ;
#23 = ORIENTED_EDGE ( 'NONE', *, *, #253, .F. ) ;
#24 = VECTOR ( 'NONE', #244, 1000.000000000000000 ) ;
#25 = ORIENTED_EDGE ( 'NONE', *, *, #277, .T. ) ;
#26 = CARTESIAN_POINT ( 'NONE',  ( -3.000000000000000000, 1.555301434917138433E-15, -12.69999999999999929 ) ) ;
#27 = CARTESIAN_POINT ( 'NONE',  ( -3.000000000000000000, 7.500000000000000000, 0.000000000000000000 ) ) ;
#28 = EDGE_CURVE ( 'NONE', #171, #311, #303, .T. ) ;
#29 = APPROVAL_ROLE ( '' ) ;
#30 = CARTESIAN_POINT ( 'NONE',  ( -1.614212418857619014, 0.000000000000000000, 7.499999999999998224 ) ) ;
#31 = PERSON_AND_ORGANIZATION ( #255, #97 ) ;
#32 = DIRECTION ( 'NONE',  ( 0.000000000000000000, 0.000000000000000000, -1.000000000000000000 ) ) ;
#33 = VERTEX_POINT ( 'NONE', #21 ) ;
#34 = CARTESIAN_POINT ( 'NONE',  ( -1.614212418857619014, 0.000000000000000000, 0.000000000000000000 ) ) ;
#35 = ORIENTED_EDGE ( 'NONE', *, *, #189, .F. ) ;
#36 = EDGE_CURVE ( 'NONE', #45, #279, #245, .T. ) ;
#37 = AXIS2_PLACEMENT_3D ( 'NONE', #137, #190, #57 ) ;
#38 = DIRECTION ( 'NONE',  ( 0.000000000000000000, 0.000000000000000000, 1.000000000000000000 ) ) ;
#39 = DIRECTION ( 'NONE',  ( 0.000000000000000000, 0.000000000000000000, 1.000000000000000000 ) ) ;
#40 = DATE_AND_TIME ( #202, #154 ) ;
#41 = AXIS2_PLACEMENT_3D ( 'NONE', #139, #215, #9 ) ;
#42 = APPROVAL_PERSON_ORGANIZATION ( #263, #320, #128 ) ;
#43 = DIRECTION ( 'NONE',  ( 0.000000000000000000, 0.000000000000000000, 1.000000000000000000 ) ) ;
#44 = COORDINATED_UNIVERSAL_TIME_OFFSET ( 8, 0, .AHEAD. ) ;
#45 = VERTEX_POINT ( 'NONE', #224 ) ;
#46 = VECTOR ( 'NONE', #12, 1000.000000000000000 ) ;
#47 = DIRECTION ( 'NONE',  ( -1.000000000000000000, -0.000000000000000000, -0.000000000000000000 ) ) ;
#48 = DIRECTION ( 'NONE',  ( 0.000000000000000000, 0.000000000000000000, 1.000000000000000000 ) ) ;
#49 = EDGE_CURVE ( 'NONE', #335, #230, #262, .T. ) ;
#50 = ORIENTED_EDGE ( 'NONE', *, *, #105, .F. ) ;
#51 = AXIS2_PLACEMENT_3D ( 'NONE', #231, #2, #267 ) ;
#52 = CARTESIAN_POINT ( 'NONE',  ( -0.5000000000000004441, 7.500000000000000000, 0.000000000000000000 ) ) ;
#53 = AXIS2_PLACEMENT_3D ( 'NONE', #86, #289, #87 ) ;
#54 = DATE_AND_TIME ( #251, #322 ) ;
#55 = CC_DESIGN_APPROVAL ( #320, ( #76 ) ) ;
#56 = CARTESIAN_POINT ( 'NONE',  ( -3.000000000000000000, 0.000000000000000000, 7.500000000000000000 ) ) ;
#57 = DIRECTION ( 'NONE',  ( 0.000000000000000000, 0.000000000000000000, 1.000000000000000000 ) ) ;
#58 = VERTEX_POINT ( 'NONE', #26 ) ;
#59 = AXIS2_PLACEMENT_3D ( 'NONE', #155, #199, #43 ) ;
#60 = CARTESIAN_POINT ( 'NONE',  ( -1.614212418857619014, 0.000000000000000000, 0.000000000000000000 ) ) ;
#61 = CYLINDRICAL_SURFACE ( 'NONE', #142, 12.69999999999999929 ) ;
#62 = CARTESIAN_POINT ( 'NONE',  ( -1.614212418857619014, 0.000000000000000000, 0.000000000000000000 ) ) ;
#63 = APPROVAL ( #228, 'UNSPECIFIED' ) ;
#64 = PERSON_AND_ORGANIZATION ( #255, #97 ) ;
#65 = CARTESIAN_POINT ( 'NONE',  ( -3.000000000000000000, 9.184850993605147944E-16, -7.500000000000000000 ) ) ;
#66 = CARTESIAN_POINT ( 'NONE',  ( -1.614212418857619014, 1.555301434917138433E-15, -12.69999999999999929 ) ) ;
#67 = CC_DESIGN_PERSON_AND_ORGANIZATION_ASSIGNMENT ( #179, #8, ( #204 ) ) ;
#68 = VERTEX_POINT ( 'NONE', #133 ) ;
#69 = DATE_AND_TIME ( #288, #285 ) ;
#70 = EDGE_LOOP ( 'NONE', ( #201, #114, #186, #229 ) ) ;
#71 = APPROVAL_DATE_TIME ( #40, #63 ) ;
#72 = CYLINDRICAL_SURFACE ( 'NONE', #59, 7.499999999999998224 ) ;
#73 = APPLICATION_CONTEXT ( 'configuration controlled 3d designs of mechanical parts and assemblies' ) ;
#74 = ORIENTED_EDGE ( 'NONE', *, *, #28, .F. ) ;
#75 = CIRCLE ( 'NONE', #316, 7.499999999999998224 ) ;
#76 = PRODUCT_DEFINITION_FORMATION_WITH_SPECIFIED_SOURCE ( 'ANY', '', #163, .NOT_KNOWN. ) ;
#77 = EDGE_LOOP ( 'NONE', ( #99, #13, #331, #268 ) ) ;
#78 = DIRECTION ( 'NONE',  ( -1.000000000000000000, -0.000000000000000000, -0.000000000000000000 ) ) ;
#79 = DATE_AND_TIME ( #235, #192 ) ;
#80 = CIRCLE ( 'NONE', #246, 7.499999999999997335 ) ;
#81 = FACE_OUTER_BOUND ( 'NONE', #19, .T. ) ;
#82 = EDGE_LOOP ( 'NONE', ( #307, #25, #102, #282 ) ) ;
#83 = AXIS2_PLACEMENT_3D ( 'NONE', #134, #104, #264 ) ;
#84 = CC_DESIGN_SECURITY_CLASSIFICATION ( #257, ( #76 ) ) ;
#85 = FACE_OUTER_BOUND ( 'NONE', #156, .T. ) ;
#86 = CARTESIAN_POINT ( 'NONE',  ( 3.000000000000000000, 12.69999999999999929, 0.000000000000000000 ) ) ;
#87 = DIRECTION ( 'NONE',  ( -0.000000000000000000, 0.000000000000000000, 1.000000000000000000 ) ) ;
#88 = EDGE_CURVE ( 'NONE', #68, #10, #151, .T. ) ;
#89 = DIRECTION ( 'NONE',  ( -1.000000000000000000, -0.000000000000000000, -0.000000000000000000 ) ) ;
#90 = LINE ( 'NONE', #15, #191 ) ;
#91 = DIRECTION ( 'NONE',  ( 0.000000000000000000, 0.000000000000000000, 1.000000000000000000 ) ) ;
#92 = LINE ( 'NONE', #197, #123 ) ;
#93 = AXIS2_PLACEMENT_3D ( 'NONE', #325, #91, #193 ) ;
#94 = EDGE_LOOP ( 'NONE', ( #177, #7 ) ) ;
#95 = AXIS2_PLACEMENT_3D ( 'NONE', #52, #140, #188 ) ;
#96 = ORIENTED_EDGE ( 'NONE', *, *, #247, .T. ) ;
#97 = ORGANIZATION ( 'UNSPECIFIED', 'UNSPECIFIED', '' ) ;
#98 = COORDINATED_UNIVERSAL_TIME_OFFSET ( 8, 0, .AHEAD. ) ;
#99 = ORIENTED_EDGE ( 'NONE', *, *, #17, .F. ) ;
#100 = DIRECTION ( 'NONE',  ( 0.000000000000000000, 0.000000000000000000, 1.000000000000000000 ) ) ;
#101 = EDGE_CURVE ( 'NONE', #335, #125, #319, .T. ) ;
#102 = ORIENTED_EDGE ( 'NONE', *, *, #101, .T. ) ;
#103 = CIRCLE ( 'NONE', #208, 7.500000000000000000 ) ;
#104 = DIRECTION ( 'NONE',  ( -1.000000000000000000, -0.000000000000000000, -0.000000000000000000 ) ) ;
#105 = EDGE_CURVE ( 'NONE', #311, #171, #242, .T. ) ;
#106 = ADVANCED_BREP_SHAPE_REPRESENTATION ( 'QM-AAHWP-15-650-1100-M', ( #175, #93 ), #196 ) ;
#107 = FACE_OUTER_BOUND ( 'NONE', #136, .T. ) ;
#108 = EDGE_LOOP ( 'NONE', ( #132, #1 ) ) ;
#109 = APPROVAL_STATUS ( 'not_yet_approved' ) ;
#110 = FACE_OUTER_BOUND ( 'NONE', #108, .T. ) ;
#111 = EDGE_LOOP ( 'NONE', ( #148, #294 ) ) ;
#112 = AXIS2_PLACEMENT_3D ( 'NONE', #220, #89, #145 ) ;
#113 = DIRECTION ( 'NONE',  ( -1.000000000000000000, -0.000000000000000000, -0.000000000000000000 ) ) ;
#114 = ORIENTED_EDGE ( 'NONE', *, *, #36, .F. ) ;
#115 = DIRECTION ( 'NONE',  ( 0.000000000000000000, 0.000000000000000000, 1.000000000000000000 ) ) ;
#116 = APPLICATION_PROTOCOL_DEFINITION ( 'international standard', 'config_control_design', 1994, #73 ) ;
#117 = AXIS2_PLACEMENT_3D ( 'NONE', #34, #78, #115 ) ;
#118 = PRODUCT_DEFINITION_SHAPE ( 'NONE', 'NONE',  #204 ) ;
#119 = APPLICATION_CONTEXT ( 'configuration controlled 3d designs of mechanical parts and assemblies' ) ;
#120 = DIRECTION ( 'NONE',  ( -1.000000000000000000, -0.000000000000000000, -0.000000000000000000 ) ) ;
#121 = FACE_OUTER_BOUND ( 'NONE', #70, .T. ) ;
#122 = PRODUCT_RELATED_PRODUCT_CATEGORY ( 'detail', '', ( #163 ) ) ;
#123 = VECTOR ( 'NONE', #120, 1000.000000000000000 ) ;
#124 =( NAMED_UNIT ( * ) PLANE_ANGLE_UNIT ( ) SI_UNIT ( $, .RADIAN. ) );
#125 = VERTEX_POINT ( 'NONE', #271 ) ;
#126 = DATE_AND_TIME ( #212, #11 ) ;
#127 = DIRECTION ( 'NONE',  ( -1.000000000000000000, -0.000000000000000000, -0.000000000000000000 ) ) ;
#128 = APPROVAL_ROLE ( '' ) ;
#129 = AXIS2_PLACEMENT_3D ( 'NONE', #234, #143, #39 ) ;
#130 = ORIENTED_EDGE ( 'NONE', *, *, #265, .T. ) ;
#131 = CC_DESIGN_APPROVAL ( #241, ( #204 ) ) ;
#132 = ORIENTED_EDGE ( 'NONE', *, *, #49, .F. ) ;
#133 = CARTESIAN_POINT ( 'NONE',  ( -0.5000000000000004441, 0.000000000000000000, 7.499999999999998224 ) ) ;
#134 = CARTESIAN_POINT ( 'NONE',  ( -3.000000000000000000, 0.000000000000000000, 0.000000000000000000 ) ) ;
#135 = DIRECTION ( 'NONE',  ( -1.000000000000000000, -0.000000000000000000, -0.000000000000000000 ) ) ;
#136 = EDGE_LOOP ( 'NONE', ( #306, #130, #35, #221 ) ) ;
#137 = CARTESIAN_POINT ( 'NONE',  ( -3.000000000000000000, 0.000000000000000000, 0.000000000000000000 ) ) ;
#138 = ORIENTED_EDGE ( 'NONE', *, *, #259, .T. ) ;
#139 = CARTESIAN_POINT ( 'NONE',  ( -1.614212418857619014, 0.000000000000000000, 0.000000000000000000 ) ) ;
#140 = DIRECTION ( 'NONE',  ( 1.000000000000000000, 0.000000000000000000, 0.000000000000000000 ) ) ;
#141 = PERSON_AND_ORGANIZATION ( #255, #97 ) ;
#142 = AXIS2_PLACEMENT_3D ( 'NONE', #60, #293, #233 ) ;
#143 = DIRECTION ( 'NONE',  ( -1.000000000000000000, -0.000000000000000000, -0.000000000000000000 ) ) ;
#144 = CC_DESIGN_DATE_AND_TIME_ASSIGNMENT ( #126, #281, ( #204 ) ) ;
#145 = DIRECTION ( 'NONE',  ( 0.000000000000000000, 0.000000000000000000, 1.000000000000000000 ) ) ;
#146 =( LENGTH_UNIT ( ) NAMED_UNIT ( * ) SI_UNIT ( .MILLI., .METRE. ) );
#147 = APPROVAL_ROLE ( '' ) ;
#148 = ORIENTED_EDGE ( 'NONE', *, *, #36, .T. ) ;
#149 = SECURITY_CLASSIFICATION_LEVEL ( 'unclassified' ) ;
#150 = ORIENTED_EDGE ( 'NONE', *, *, #250, .T. ) ;
#151 = CIRCLE ( 'NONE', #51, 7.499999999999998224 ) ;
#152 = ADVANCED_FACE ( 'NONE', ( #210 ), #240, .F. ) ;
#153 = DIRECTION ( 'NONE',  ( -1.000000000000000000, -0.000000000000000000, -0.000000000000000000 ) ) ;
#154 = LOCAL_TIME ( 10, 33, 9.000000000000000000, #98 ) ;
#155 = CARTESIAN_POINT ( 'NONE',  ( -1.614212418857619014, 0.000000000000000000, 0.000000000000000000 ) ) ;
#156 = EDGE_LOOP ( 'NONE', ( #258, #23 ) ) ;
#157 = DIRECTION ( 'NONE',  ( 1.000000000000000000, 0.000000000000000000, 0.000000000000000000 ) ) ;
#158 = ADVANCED_FACE ( 'NONE', ( #237 ), #213, .F. ) ;
#159 = FACE_OUTER_BOUND ( 'NONE', #287, .T. ) ;
#160 = ADVANCED_FACE ( 'NONE', ( #107 ), #4, .T. ) ;
#161 = FACE_BOUND ( 'NONE', #173, .T. ) ;
#162 = MECHANICAL_CONTEXT ( 'NONE', #73, 'mechanical' ) ;
#163 = PRODUCT ( 'QM-AAHWP-15-650-1100-M', 'QM-AAHWP-15-650-1100-M', '', ( #162 ) ) ;
#164 = AXIS2_PLACEMENT_3D ( 'NONE', #14, #113, #270 ) ;
#165 = APPROVAL_STATUS ( 'not_yet_approved' ) ;
#166 = ADVANCED_FACE ( 'NONE', ( #85 ), #181, .F. ) ;
#167 = CARTESIAN_POINT ( 'NONE',  ( -1.614212418857619014, 9.184850993605145972E-16, -7.499999999999998224 ) ) ;
#168 = CARTESIAN_POINT ( 'NONE',  ( 0.5000000000000008882, 0.000000000000000000, 7.500000000000000000 ) ) ;
#169 = CC_DESIGN_DATE_AND_TIME_ASSIGNMENT ( #69, #332, ( #257 ) ) ;
#170 = COORDINATED_UNIVERSAL_TIME_OFFSET ( 8, 0, .AHEAD. ) ;
#171 = VERTEX_POINT ( 'NONE', #56 ) ;
#172 = DESIGN_CONTEXT ( 'detailed design', #119, 'design' ) ;
#173 = EDGE_LOOP ( 'NONE', ( #74, #50 ) ) ;
#174 = CARTESIAN_POINT ( 'NONE',  ( 3.000000000000000000, 0.000000000000000000, 0.000000000000000000 ) ) ;
#175 = MANIFOLD_SOLID_BREP ( 'Ðý×', #223 ) ;
#176 = CIRCLE ( 'NONE', #129, 7.500000000000000000 ) ;
#177 = ORIENTED_EDGE ( 'NONE', *, *, #88, .F. ) ;
#178 = ORIENTED_EDGE ( 'NONE', *, *, #326, .F. ) ;
#179 = PERSON_AND_ORGANIZATION ( #255, #97 ) ;
#180 = CC_DESIGN_PERSON_AND_ORGANIZATION_ASSIGNMENT ( #249, #254, ( #257 ) ) ;
#181 = PLANE ( 'NONE',  #18 ) ;
#182 = SHAPE_DEFINITION_REPRESENTATION ( #118, #106 ) ;
#183 = DIRECTION ( 'NONE',  ( 0.000000000000000000, 0.000000000000000000, 1.000000000000000000 ) ) ;
#184 = ORIENTED_EDGE ( 'NONE', *, *, #28, .T. ) ;
#185 = PLANE ( 'NONE',  #53 ) ;
#186 = ORIENTED_EDGE ( 'NONE', *, *, #309, .T. ) ;
#187 = ADVANCED_FACE ( 'NONE', ( #81 ), #318, .F. ) ;
#188 = DIRECTION ( 'NONE',  ( 0.000000000000000000, 0.000000000000000000, -1.000000000000000000 ) ) ;
#189 = EDGE_CURVE ( 'NONE', #125, #58, #278, .T. ) ;
#190 = DIRECTION ( 'NONE',  ( -1.000000000000000000, -0.000000000000000000, -0.000000000000000000 ) ) ;
#191 = VECTOR ( 'NONE', #272, 1000.000000000000000 ) ;
#192 = LOCAL_TIME ( 10, 33, 9.000000000000000000, #170 ) ;
#193 = DIRECTION ( 'NONE',  ( 1.000000000000000000, 0.000000000000000000, 0.000000000000000000 ) ) ;
#194 = DIRECTION ( 'NONE',  ( -1.000000000000000000, -0.000000000000000000, -0.000000000000000000 ) ) ;
#195 = DIRECTION ( 'NONE',  ( -1.000000000000000000, -0.000000000000000000, -0.000000000000000000 ) ) ;
#196 =( GEOMETRIC_REPRESENTATION_CONTEXT ( 3 ) GLOBAL_UNCERTAINTY_ASSIGNED_CONTEXT ( ( #327 ) ) GLOBAL_UNIT_ASSIGNED_CONTEXT ( ( #146, #124, #302 ) ) REPRESENTATION_CONTEXT ( 'NONE', 'WORKASPACE' ) );
#197 = CARTESIAN_POINT ( 'NONE',  ( -1.614212418857619014, 0.000000000000000000, 7.499999999999998224 ) ) ;
#198 = CARTESIAN_POINT ( 'NONE',  ( 0.5000000000000008882, 0.000000000000000000, 0.000000000000000000 ) ) ;
#199 = DIRECTION ( 'NONE',  ( -1.000000000000000000, -0.000000000000000000, -0.000000000000000000 ) ) ;
#200 = APPROVAL_DATE_TIME ( #54, #320 ) ;
#201 = ORIENTED_EDGE ( 'NONE', *, *, #323, .F. ) ;
#202 = CALENDAR_DATE ( 2021, 5, 1 ) ;
#203 = FACE_OUTER_BOUND ( 'NONE', #211, .T. ) ;
#204 = PRODUCT_DEFINITION ( 'UNKNOWN', '', #76, #172 ) ;
#205 = CARTESIAN_POINT ( 'NONE',  ( 3.000000000000000000, 0.000000000000000000, 0.000000000000000000 ) ) ;
#206 = CIRCLE ( 'NONE', #83, 12.69999999999999929 ) ;
#207 = CARTESIAN_POINT ( 'NONE',  ( -3.000000000000000000, 0.000000000000000000, 0.000000000000000000 ) ) ;
#208 = AXIS2_PLACEMENT_3D ( 'NONE', #198, #195, #38 ) ;
#209 = LINE ( 'NONE', #30, #273 ) ;
#210 = FACE_OUTER_BOUND ( 'NONE', #94, .T. ) ;
#211 = EDGE_LOOP ( 'NONE', ( #214, #283, #304, #292 ) ) ;
#212 = CALENDAR_DATE ( 2021, 5, 1 ) ;
#213 = CYLINDRICAL_SURFACE ( 'NONE', #117, 7.499999999999998224 ) ;
#214 = ORIENTED_EDGE ( 'NONE', *, *, #88, .T. ) ;
#215 = DIRECTION ( 'NONE',  ( -1.000000000000000000, -0.000000000000000000, -0.000000000000000000 ) ) ;
#216 = DIRECTION ( 'NONE',  ( -1.000000000000000000, -0.000000000000000000, -0.000000000000000000 ) ) ;
#217 = DIRECTION ( 'NONE',  ( -1.000000000000000000, -0.000000000000000000, -0.000000000000000000 ) ) ;
#218 = DIRECTION ( 'NONE',  ( 0.000000000000000000, 0.000000000000000000, -1.000000000000000000 ) ) ;
#219 = LINE ( 'NONE', #66, #24 ) ;
#220 = CARTESIAN_POINT ( 'NONE',  ( 3.000000000000000000, 0.000000000000000000, 0.000000000000000000 ) ) ;
#221 = ORIENTED_EDGE ( 'NONE', *, *, #101, .F. ) ;
#222 = PERSON_AND_ORGANIZATION_ROLE ( 'design_supplier' ) ;
#223 = CLOSED_SHELL ( 'NONE', ( #160, #16, #158, #166, #301, #187, #238, #236, #226, #152 ) ) ;
#224 = CARTESIAN_POINT ( 'NONE',  ( 3.000000000000000000, 0.000000000000000000, 7.499999999999997335 ) ) ;
#225 = AXIS2_PLACEMENT_3D ( 'NONE', #27, #157, #32 ) ;
#226 = ADVANCED_FACE ( 'NONE', ( #110, #317 ), #185, .F. ) ;
#227 = CC_DESIGN_APPROVAL ( #63, ( #257 ) ) ;
#228 = APPROVAL_STATUS ( 'not_yet_approved' ) ;
#229 = ORIENTED_EDGE ( 'NONE', *, *, #330, .T. ) ;
#230 = VERTEX_POINT ( 'NONE', #296 ) ;
#231 = CARTESIAN_POINT ( 'NONE',  ( -0.5000000000000004441, 0.000000000000000000, 0.000000000000000000 ) ) ;
#232 = AXIS2_PLACEMENT_3D ( 'NONE', #207, #153, #286 ) ;
#233 = DIRECTION ( 'NONE',  ( 0.000000000000000000, 0.000000000000000000, 1.000000000000000000 ) ) ;
#234 = CARTESIAN_POINT ( 'NONE',  ( 0.5000000000000008882, 0.000000000000000000, 0.000000000000000000 ) ) ;
#235 = CALENDAR_DATE ( 2021, 5, 1 ) ;
#236 = ADVANCED_FACE ( 'NONE', ( #295 ), #61, .T. ) ;
#237 = FACE_OUTER_BOUND ( 'NONE', #77, .T. ) ;
#238 = ADVANCED_FACE ( 'NONE', ( #161, #159 ), #261, .F. ) ;
#239 = DIRECTION ( 'NONE',  ( -1.000000000000000000, 0.000000000000000000, -0.000000000000000000 ) ) ;
#240 = PLANE ( 'NONE',  #95 ) ;
#241 = APPROVAL ( #165, 'UNSPECIFIED' ) ;
#242 = CIRCLE ( 'NONE', #164, 7.500000000000000000 ) ;
#243 = PERSON_AND_ORGANIZATION_ROLE ( 'design_owner' ) ;
#244 = DIRECTION ( 'NONE',  ( -1.000000000000000000, -0.000000000000000000, -0.000000000000000000 ) ) ;
#245 = CIRCLE ( 'NONE', #276, 7.499999999999997335 ) ;
#246 = AXIS2_PLACEMENT_3D ( 'NONE', #174, #47, #333 ) ;
#247 = EDGE_CURVE ( 'NONE', #58, #125, #206, .T. ) ;
#248 = AXIS2_PLACEMENT_3D ( 'NONE', #62, #217, #328 ) ;
#249 = PERSON_AND_ORGANIZATION ( #255, #97 ) ;
#250 = EDGE_CURVE ( 'NONE', #68, #171, #209, .T. ) ;
#251 = CALENDAR_DATE ( 2021, 5, 1 ) ;
#252 = CARTESIAN_POINT ( 'NONE',  ( 3.000000000000000000, 0.000000000000000000, 0.000000000000000000 ) ) ;
#253 = EDGE_CURVE ( 'NONE', #33, #315, #176, .T. ) ;
#254 = PERSON_AND_ORGANIZATION_ROLE ( 'classification_officer' ) ;
#255 = PERSON ( 'UNSPECIFIED', 'UNSPECIFIED', 'UNSPECIFIED', ('UNSPECIFIED'), ('UNSPECIFIED'), ('UNSPECIFIED') ) ;
#256 = ORIENTED_EDGE ( 'NONE', *, *, #189, .T. ) ;
#257 = SECURITY_CLASSIFICATION ( '', '', #149 ) ;
#258 = ORIENTED_EDGE ( 'NONE', *, *, #330, .F. ) ;
#259 = EDGE_CURVE ( 'NONE', #10, #68, #75, .T. ) ;
#260 = DIRECTION ( 'NONE',  ( -1.000000000000000000, -0.000000000000000000, -0.000000000000000000 ) ) ;
#261 = PLANE ( 'NONE',  #225 ) ;
#262 = CIRCLE ( 'NONE', #314, 12.69999999999999929 ) ;
#263 = PERSON_AND_ORGANIZATION ( #255, #97 ) ;
#264 = DIRECTION ( 'NONE',  ( 0.000000000000000000, 0.000000000000000000, 1.000000000000000000 ) ) ;
#265 = EDGE_CURVE ( 'NONE', #230, #58, #219, .T. ) ;
#266 = COORDINATED_UNIVERSAL_TIME_OFFSET ( 8, 0, .AHEAD. ) ;
#267 = DIRECTION ( 'NONE',  ( 0.000000000000000000, 0.000000000000000000, -1.000000000000000000 ) ) ;
#268 = ORIENTED_EDGE ( 'NONE', *, *, #309, .F. ) ;
#269 = CC_DESIGN_PERSON_AND_ORGANIZATION_ASSIGNMENT ( #141, #243, ( #163 ) ) ;
#270 = DIRECTION ( 'NONE',  ( 0.000000000000000000, 0.000000000000000000, 1.000000000000000000 ) ) ;
#271 = CARTESIAN_POINT ( 'NONE',  ( -3.000000000000000000, 0.000000000000000000, 12.69999999999999929 ) ) ;
#272 = DIRECTION ( 'NONE',  ( -1.000000000000000000, -0.000000000000000000, -0.000000000000000000 ) ) ;
#273 = VECTOR ( 'NONE', #135, 1000.000000000000000 ) ;
#274 = CC_DESIGN_PERSON_AND_ORGANIZATION_ASSIGNMENT ( #334, #222, ( #76 ) ) ;
#275 = CARTESIAN_POINT ( 'NONE',  ( 3.000000000000000000, 0.000000000000000000, 12.69999999999999929 ) ) ;
#276 = AXIS2_PLACEMENT_3D ( 'NONE', #252, #127, #100 ) ;
#277 = EDGE_CURVE ( 'NONE', #230, #335, #297, .T. ) ;
#278 = CIRCLE ( 'NONE', #37, 12.69999999999999929 ) ;
#279 = VERTEX_POINT ( 'NONE', #321 ) ;
#280 = CC_DESIGN_PERSON_AND_ORGANIZATION_ASSIGNMENT ( #5, #305, ( #76 ) ) ;
#281 = DATE_TIME_ROLE ( 'creation_date' ) ;
#282 = ORIENTED_EDGE ( 'NONE', *, *, #247, .F. ) ;
#283 = ORIENTED_EDGE ( 'NONE', *, *, #326, .T. ) ;
#284 = AXIS2_PLACEMENT_3D ( 'NONE', #6, #216, #183 ) ;
#285 = LOCAL_TIME ( 10, 33, 9.000000000000000000, #266 ) ;
#286 = DIRECTION ( 'NONE',  ( 0.000000000000000000, 0.000000000000000000, 1.000000000000000000 ) ) ;
#287 = EDGE_LOOP ( 'NONE', ( #256, #96 ) ) ;
#288 = CALENDAR_DATE ( 2021, 5, 1 ) ;
#289 = DIRECTION ( 'NONE',  ( -1.000000000000000000, 0.000000000000000000, -0.000000000000000000 ) ) ;
#290 = APPROVAL_PERSON_ORGANIZATION ( #64, #241, #147 ) ;
#291 = CARTESIAN_POINT ( 'NONE',  ( 0.5000000000000004441, 7.500000000000000000, 0.000000000000000000 ) ) ;
#292 = ORIENTED_EDGE ( 'NONE', *, *, #250, .F. ) ;
#293 = DIRECTION ( 'NONE',  ( -1.000000000000000000, -0.000000000000000000, -0.000000000000000000 ) ) ;
#294 = ORIENTED_EDGE ( 'NONE', *, *, #17, .T. ) ;
#295 = FACE_OUTER_BOUND ( 'NONE', #82, .T. ) ;
#296 = CARTESIAN_POINT ( 'NONE',  ( 3.000000000000000000, 1.555301434917138433E-15, -12.69999999999999929 ) ) ;
#297 = CIRCLE ( 'NONE', #112, 12.69999999999999929 ) ;
#298 = DIRECTION ( 'NONE',  ( 1.000000000000000000, 0.000000000000000000, 0.000000000000000000 ) ) ;
#299 = APPLICATION_PROTOCOL_DEFINITION ( 'international standard', 'config_control_design', 1994, #119 ) ;
#300 = CARTESIAN_POINT ( 'NONE',  ( -0.5000000000000004441, 0.000000000000000000, 0.000000000000000000 ) ) ;
#301 = ADVANCED_FACE ( 'NONE', ( #121 ), #324, .F. ) ;
#302 =( NAMED_UNIT ( * ) SI_UNIT ( $, .STERADIAN. ) SOLID_ANGLE_UNIT ( ) );
#303 = CIRCLE ( 'NONE', #232, 7.500000000000000000 ) ;
#304 = ORIENTED_EDGE ( 'NONE', *, *, #105, .T. ) ;
#305 = PERSON_AND_ORGANIZATION_ROLE ( 'creator' ) ;
#306 = ORIENTED_EDGE ( 'NONE', *, *, #49, .T. ) ;
#307 = ORIENTED_EDGE ( 'NONE', *, *, #265, .F. ) ;
#308 = CARTESIAN_POINT ( 'NONE',  ( -0.5000000000000004441, 9.184850993605145972E-16, -7.499999999999998224 ) ) ;
#309 = EDGE_CURVE ( 'NONE', #45, #315, #92, .T. ) ;
#310 = APPROVAL_PERSON_ORGANIZATION ( #31, #63, #29 ) ;
#311 = VERTEX_POINT ( 'NONE', #65 ) ;
#312 = DIRECTION ( 'NONE',  ( -0.000000000000000000, 0.000000000000000000, 1.000000000000000000 ) ) ;
#313 = CARTESIAN_POINT ( 'NONE',  ( -1.614212418857619014, 0.000000000000000000, 12.69999999999999929 ) ) ;
#314 = AXIS2_PLACEMENT_3D ( 'NONE', #205, #260, #48 ) ;
#315 = VERTEX_POINT ( 'NONE', #168 ) ;
#316 = AXIS2_PLACEMENT_3D ( 'NONE', #300, #298, #218 ) ;
#317 = FACE_BOUND ( 'NONE', #111, .T. ) ;
#318 = CYLINDRICAL_SURFACE ( 'NONE', #284, 7.499999999999998224 ) ;
#319 = LINE ( 'NONE', #313, #46 ) ;
#320 = APPROVAL ( #109, 'UNSPECIFIED' ) ;
#321 = CARTESIAN_POINT ( 'NONE',  ( 3.000000000000000000, 9.184850993605144000E-16, -7.499999999999997335 ) ) ;
#322 = LOCAL_TIME ( 10, 33, 9.000000000000000000, #44 ) ;
#323 = EDGE_CURVE ( 'NONE', #279, #33, #329, .T. ) ;
#324 = CYLINDRICAL_SURFACE ( 'NONE', #248, 7.499999999999998224 ) ;
#325 = CARTESIAN_POINT ( 'NONE',  ( 0.000000000000000000, 0.000000000000000000, 0.000000000000000000 ) ) ;
#326 = EDGE_CURVE ( 'NONE', #10, #311, #90, .T. ) ;
#327 = UNCERTAINTY_MEASURE_WITH_UNIT (LENGTH_MEASURE( 1.000000000000000082E-05 ), #146, 'distance_accuracy_value', 'NONE');
#328 = DIRECTION ( 'NONE',  ( 0.000000000000000000, 0.000000000000000000, 1.000000000000000000 ) ) ;
#329 = LINE ( 'NONE', #167, #3 ) ;
#330 = EDGE_CURVE ( 'NONE', #315, #33, #103, .T. ) ;
#331 = ORIENTED_EDGE ( 'NONE', *, *, #253, .T. ) ;
#332 = DATE_TIME_ROLE ( 'classification_date' ) ;
#333 = DIRECTION ( 'NONE',  ( 0.000000000000000000, 0.000000000000000000, 1.000000000000000000 ) ) ;
#334 = PERSON_AND_ORGANIZATION ( #255, #97 ) ;
#335 = VERTEX_POINT ( 'NONE', #275 ) ;
ENDSEC;
END-ISO-10303-21;
